ISO-10303-21;
HEADER;
/* Generated by software containing ST-Developer
 * from STEP Tools, Inc. (www.steptools.com) 
 */

FILE_DESCRIPTION(
/* description */ ('U-F\X\FChrungsprofil'),
/* implementation_level */ '2;1');

FILE_NAME(
/* name */ 
'C:\\VAULT_WORKSPACE\\Projekte\\Werksnorm\\Profile\\UP xxx.0730\\UP145
-0730.stp',
/* time_stamp */ '2021-02-08T14:35:58+01:00',
/* author */ ('kstaebler'),
/* organization */ (''),
/* preprocessor_version */ 'ST-DEVELOPER v18.1',
/* originating_system */ 'Autodesk Inventor 2020',
/* authorisation */ '');

FILE_SCHEMA (('AUTOMOTIVE_DESIGN { 1 0 10303 214 3 1 1 }'));
ENDSEC;

DATA;
#10=MECHANICAL_DESIGN_GEOMETRIC_PRESENTATION_REPRESENTATION('',(#13),#461);
#11=SHAPE_REPRESENTATION_RELATIONSHIP('SRR','None',#468,#12);
#12=ADVANCED_BREP_SHAPE_REPRESENTATION('',(#14),#460);
#13=STYLED_ITEM('',(#477),#14);
#14=MANIFOLD_SOLID_BREP('Volumenk\X\F6rper1',#267);
#15=CIRCLE('',#291,16.);
#16=CIRCLE('',#292,16.);
#17=CIRCLE('',#294,8.);
#18=CIRCLE('',#295,8.);
#19=CIRCLE('',#297,16.);
#20=CIRCLE('',#298,8.);
#21=CIRCLE('',#301,8.);
#22=CIRCLE('',#302,16.);
#23=CYLINDRICAL_SURFACE('',#290,16.);
#24=CYLINDRICAL_SURFACE('',#293,8.);
#25=CYLINDRICAL_SURFACE('',#306,16.);
#26=CYLINDRICAL_SURFACE('',#307,8.);
#27=FACE_OUTER_BOUND('',#41,.T.);
#28=FACE_OUTER_BOUND('',#42,.T.);
#29=FACE_OUTER_BOUND('',#43,.T.);
#30=FACE_OUTER_BOUND('',#44,.T.);
#31=FACE_OUTER_BOUND('',#45,.T.);
#32=FACE_OUTER_BOUND('',#46,.T.);
#33=FACE_OUTER_BOUND('',#47,.T.);
#34=FACE_OUTER_BOUND('',#48,.T.);
#35=FACE_OUTER_BOUND('',#49,.T.);
#36=FACE_OUTER_BOUND('',#50,.T.);
#37=FACE_OUTER_BOUND('',#51,.T.);
#38=FACE_OUTER_BOUND('',#52,.T.);
#39=FACE_OUTER_BOUND('',#53,.T.);
#40=FACE_OUTER_BOUND('',#54,.T.);
#41=EDGE_LOOP('',(#171,#172,#173,#174));
#42=EDGE_LOOP('',(#175,#176,#177,#178));
#43=EDGE_LOOP('',(#179,#180,#181,#182));
#44=EDGE_LOOP('',(#183,#184,#185,#186));
#45=EDGE_LOOP('',(#187,#188,#189,#190));
#46=EDGE_LOOP('',(#191,#192,#193,#194,#195,#196,#197,#198,#199,#200,#201,
#202));
#47=EDGE_LOOP('',(#203,#204,#205,#206));
#48=EDGE_LOOP('',(#207,#208,#209,#210,#211,#212,#213,#214,#215,#216,#217,
#218));
#49=EDGE_LOOP('',(#219,#220,#221,#222));
#50=EDGE_LOOP('',(#223,#224,#225,#226));
#51=EDGE_LOOP('',(#227,#228,#229,#230));
#52=EDGE_LOOP('',(#231,#232,#233,#234));
#53=EDGE_LOOP('',(#235,#236,#237,#238));
#54=EDGE_LOOP('',(#239,#240,#241,#242));
#55=LINE('',#387,#83);
#56=LINE('',#389,#84);
#57=LINE('',#391,#85);
#58=LINE('',#392,#86);
#59=LINE('',#396,#87);
#60=LINE('',#397,#88);
#61=LINE('',#398,#89);
#62=LINE('',#402,#90);
#63=LINE('',#403,#91);
#64=LINE('',#404,#92);
#65=LINE('',#409,#93);
#66=LINE('',#415,#94);
#67=LINE('',#419,#95);
#68=LINE('',#423,#96);
#69=LINE('',#425,#97);
#70=LINE('',#427,#98);
#71=LINE('',#430,#99);
#72=LINE('',#433,#100);
#73=LINE('',#434,#101);
#74=LINE('',#437,#102);
#75=LINE('',#441,#103);
#76=LINE('',#443,#104);
#77=LINE('',#445,#105);
#78=LINE('',#448,#106);
#79=LINE('',#449,#107);
#80=LINE('',#451,#108);
#81=LINE('',#453,#109);
#82=LINE('',#456,#110);
#83=VECTOR('',#313,10.);
#84=VECTOR('',#314,10.);
#85=VECTOR('',#315,10.);
#86=VECTOR('',#316,10.);
#87=VECTOR('',#319,10.);
#88=VECTOR('',#320,10.);
#89=VECTOR('',#321,10.);
#90=VECTOR('',#324,10.);
#91=VECTOR('',#325,10.);
#92=VECTOR('',#326,10.);
#93=VECTOR('',#331,10.);
#94=VECTOR('',#338,10.);
#95=VECTOR('',#343,10.);
#96=VECTOR('',#346,10.);
#97=VECTOR('',#347,10.);
#98=VECTOR('',#348,10.);
#99=VECTOR('',#351,10.);
#100=VECTOR('',#354,10.);
#101=VECTOR('',#355,10.);
#102=VECTOR('',#358,10.);
#103=VECTOR('',#361,10.);
#104=VECTOR('',#362,10.);
#105=VECTOR('',#363,10.);
#106=VECTOR('',#368,10.);
#107=VECTOR('',#369,10.);
#108=VECTOR('',#372,10.);
#109=VECTOR('',#375,10.);
#110=VECTOR('',#380,10.);
#111=VERTEX_POINT('',#385);
#112=VERTEX_POINT('',#386);
#113=VERTEX_POINT('',#388);
#114=VERTEX_POINT('',#390);
#115=VERTEX_POINT('',#394);
#116=VERTEX_POINT('',#395);
#117=VERTEX_POINT('',#400);
#118=VERTEX_POINT('',#401);
#119=VERTEX_POINT('',#406);
#120=VERTEX_POINT('',#408);
#121=VERTEX_POINT('',#412);
#122=VERTEX_POINT('',#414);
#123=VERTEX_POINT('',#418);
#124=VERTEX_POINT('',#420);
#125=VERTEX_POINT('',#422);
#126=VERTEX_POINT('',#424);
#127=VERTEX_POINT('',#426);
#128=VERTEX_POINT('',#428);
#129=VERTEX_POINT('',#432);
#130=VERTEX_POINT('',#436);
#131=VERTEX_POINT('',#438);
#132=VERTEX_POINT('',#440);
#133=VERTEX_POINT('',#442);
#134=VERTEX_POINT('',#444);
#135=EDGE_CURVE('',#111,#112,#55,.T.);
#136=EDGE_CURVE('',#111,#113,#56,.T.);
#137=EDGE_CURVE('',#113,#114,#57,.T.);
#138=EDGE_CURVE('',#114,#112,#58,.T.);
#139=EDGE_CURVE('',#115,#116,#59,.T.);
#140=EDGE_CURVE('',#114,#116,#60,.T.);
#141=EDGE_CURVE('',#113,#115,#61,.T.);
#142=EDGE_CURVE('',#117,#118,#62,.T.);
#143=EDGE_CURVE('',#116,#117,#63,.T.);
#144=EDGE_CURVE('',#118,#115,#64,.T.);
#145=EDGE_CURVE('',#119,#112,#15,.T.);
#146=EDGE_CURVE('',#120,#119,#65,.T.);
#147=EDGE_CURVE('',#120,#111,#16,.T.);
#148=EDGE_CURVE('',#121,#118,#17,.T.);
#149=EDGE_CURVE('',#122,#121,#66,.T.);
#150=EDGE_CURVE('',#122,#117,#18,.T.);
#151=EDGE_CURVE('',#120,#123,#67,.T.);
#152=EDGE_CURVE('',#123,#124,#19,.T.);
#153=EDGE_CURVE('',#125,#124,#68,.T.);
#154=EDGE_CURVE('',#125,#126,#69,.T.);
#155=EDGE_CURVE('',#126,#127,#70,.T.);
#156=EDGE_CURVE('',#128,#127,#20,.T.);
#157=EDGE_CURVE('',#128,#121,#71,.T.);
#158=EDGE_CURVE('',#129,#119,#72,.T.);
#159=EDGE_CURVE('',#129,#123,#73,.T.);
#160=EDGE_CURVE('',#122,#130,#74,.T.);
#161=EDGE_CURVE('',#130,#131,#21,.T.);
#162=EDGE_CURVE('',#131,#132,#75,.T.);
#163=EDGE_CURVE('',#133,#132,#76,.T.);
#164=EDGE_CURVE('',#134,#133,#77,.T.);
#165=EDGE_CURVE('',#129,#134,#22,.T.);
#166=EDGE_CURVE('',#134,#124,#78,.T.);
#167=EDGE_CURVE('',#133,#125,#79,.T.);
#168=EDGE_CURVE('',#132,#126,#80,.T.);
#169=EDGE_CURVE('',#127,#131,#81,.T.);
#170=EDGE_CURVE('',#128,#130,#82,.T.);
#171=ORIENTED_EDGE('',*,*,#135,.F.);
#172=ORIENTED_EDGE('',*,*,#136,.T.);
#173=ORIENTED_EDGE('',*,*,#137,.T.);
#174=ORIENTED_EDGE('',*,*,#138,.T.);
#175=ORIENTED_EDGE('',*,*,#139,.T.);
#176=ORIENTED_EDGE('',*,*,#140,.F.);
#177=ORIENTED_EDGE('',*,*,#137,.F.);
#178=ORIENTED_EDGE('',*,*,#141,.T.);
#179=ORIENTED_EDGE('',*,*,#142,.F.);
#180=ORIENTED_EDGE('',*,*,#143,.F.);
#181=ORIENTED_EDGE('',*,*,#139,.F.);
#182=ORIENTED_EDGE('',*,*,#144,.F.);
#183=ORIENTED_EDGE('',*,*,#135,.T.);
#184=ORIENTED_EDGE('',*,*,#145,.F.);
#185=ORIENTED_EDGE('',*,*,#146,.F.);
#186=ORIENTED_EDGE('',*,*,#147,.T.);
#187=ORIENTED_EDGE('',*,*,#142,.T.);
#188=ORIENTED_EDGE('',*,*,#148,.F.);
#189=ORIENTED_EDGE('',*,*,#149,.F.);
#190=ORIENTED_EDGE('',*,*,#150,.T.);
#191=ORIENTED_EDGE('',*,*,#151,.T.);
#192=ORIENTED_EDGE('',*,*,#152,.T.);
#193=ORIENTED_EDGE('',*,*,#153,.F.);
#194=ORIENTED_EDGE('',*,*,#154,.T.);
#195=ORIENTED_EDGE('',*,*,#155,.T.);
#196=ORIENTED_EDGE('',*,*,#156,.F.);
#197=ORIENTED_EDGE('',*,*,#157,.T.);
#198=ORIENTED_EDGE('',*,*,#148,.T.);
#199=ORIENTED_EDGE('',*,*,#144,.T.);
#200=ORIENTED_EDGE('',*,*,#141,.F.);
#201=ORIENTED_EDGE('',*,*,#136,.F.);
#202=ORIENTED_EDGE('',*,*,#147,.F.);
#203=ORIENTED_EDGE('',*,*,#146,.T.);
#204=ORIENTED_EDGE('',*,*,#158,.F.);
#205=ORIENTED_EDGE('',*,*,#159,.T.);
#206=ORIENTED_EDGE('',*,*,#151,.F.);
#207=ORIENTED_EDGE('',*,*,#160,.T.);
#208=ORIENTED_EDGE('',*,*,#161,.T.);
#209=ORIENTED_EDGE('',*,*,#162,.T.);
#210=ORIENTED_EDGE('',*,*,#163,.F.);
#211=ORIENTED_EDGE('',*,*,#164,.F.);
#212=ORIENTED_EDGE('',*,*,#165,.F.);
#213=ORIENTED_EDGE('',*,*,#158,.T.);
#214=ORIENTED_EDGE('',*,*,#145,.T.);
#215=ORIENTED_EDGE('',*,*,#138,.F.);
#216=ORIENTED_EDGE('',*,*,#140,.T.);
#217=ORIENTED_EDGE('',*,*,#143,.T.);
#218=ORIENTED_EDGE('',*,*,#150,.F.);
#219=ORIENTED_EDGE('',*,*,#166,.F.);
#220=ORIENTED_EDGE('',*,*,#164,.T.);
#221=ORIENTED_EDGE('',*,*,#167,.T.);
#222=ORIENTED_EDGE('',*,*,#153,.T.);
#223=ORIENTED_EDGE('',*,*,#168,.T.);
#224=ORIENTED_EDGE('',*,*,#154,.F.);
#225=ORIENTED_EDGE('',*,*,#167,.F.);
#226=ORIENTED_EDGE('',*,*,#163,.T.);
#227=ORIENTED_EDGE('',*,*,#169,.F.);
#228=ORIENTED_EDGE('',*,*,#155,.F.);
#229=ORIENTED_EDGE('',*,*,#168,.F.);
#230=ORIENTED_EDGE('',*,*,#162,.F.);
#231=ORIENTED_EDGE('',*,*,#166,.T.);
#232=ORIENTED_EDGE('',*,*,#152,.F.);
#233=ORIENTED_EDGE('',*,*,#159,.F.);
#234=ORIENTED_EDGE('',*,*,#165,.T.);
#235=ORIENTED_EDGE('',*,*,#169,.T.);
#236=ORIENTED_EDGE('',*,*,#161,.F.);
#237=ORIENTED_EDGE('',*,*,#170,.F.);
#238=ORIENTED_EDGE('',*,*,#156,.T.);
#239=ORIENTED_EDGE('',*,*,#149,.T.);
#240=ORIENTED_EDGE('',*,*,#157,.F.);
#241=ORIENTED_EDGE('',*,*,#170,.T.);
#242=ORIENTED_EDGE('',*,*,#160,.F.);
#243=PLANE('',#287);
#244=PLANE('',#288);
#245=PLANE('',#289);
#246=PLANE('',#296);
#247=PLANE('',#299);
#248=PLANE('',#300);
#249=PLANE('',#303);
#250=PLANE('',#304);
#251=PLANE('',#305);
#252=PLANE('',#308);
#253=ADVANCED_FACE('',(#27),#243,.F.);
#254=ADVANCED_FACE('',(#28),#244,.T.);
#255=ADVANCED_FACE('',(#29),#245,.T.);
#256=ADVANCED_FACE('',(#30),#23,.T.);
#257=ADVANCED_FACE('',(#31),#24,.F.);
#258=ADVANCED_FACE('',(#32),#246,.T.);
#259=ADVANCED_FACE('',(#33),#247,.F.);
#260=ADVANCED_FACE('',(#34),#248,.T.);
#261=ADVANCED_FACE('',(#35),#249,.T.);
#262=ADVANCED_FACE('',(#36),#250,.T.);
#263=ADVANCED_FACE('',(#37),#251,.F.);
#264=ADVANCED_FACE('',(#38),#25,.T.);
#265=ADVANCED_FACE('',(#39),#26,.F.);
#266=ADVANCED_FACE('',(#40),#252,.T.);
#267=CLOSED_SHELL('',(#253,#254,#255,#256,#257,#258,#259,#260,#261,#262,
#263,#264,#265,#266));
#268=DERIVED_UNIT_ELEMENT(#270,1.);
#269=DERIVED_UNIT_ELEMENT(#463,3.);
#270=(
MASS_UNIT()
NAMED_UNIT(*)
SI_UNIT($,.GRAM.)
);
#271=DERIVED_UNIT((#268,#269));
#272=MEASURE_REPRESENTATION_ITEM('density measure',
POSITIVE_RATIO_MEASURE(7.86),#271);
#273=PROPERTY_DEFINITION_REPRESENTATION(#278,#275);
#274=PROPERTY_DEFINITION_REPRESENTATION(#279,#276);
#275=REPRESENTATION('material name',(#277),#460);
#276=REPRESENTATION('density',(#272),#460);
#277=DESCRIPTIVE_REPRESENTATION_ITEM('S235JR','S235JR');
#278=PROPERTY_DEFINITION('material property','material name',#470);
#279=PROPERTY_DEFINITION('material property','density of part',#470);
#280=DATE_TIME_ROLE('creation_date');
#281=APPLIED_DATE_AND_TIME_ASSIGNMENT(#282,#280,(#470));
#282=DATE_AND_TIME(#283,#284);
#283=CALENDAR_DATE(2008,17,7);
#284=LOCAL_TIME(8,36,0.,#285);
#285=COORDINATED_UNIVERSAL_TIME_OFFSET(0,0,.BEHIND.);
#286=AXIS2_PLACEMENT_3D('placement',#383,#309,#310);
#287=AXIS2_PLACEMENT_3D('',#384,#311,#312);
#288=AXIS2_PLACEMENT_3D('',#393,#317,#318);
#289=AXIS2_PLACEMENT_3D('',#399,#322,#323);
#290=AXIS2_PLACEMENT_3D('',#405,#327,#328);
#291=AXIS2_PLACEMENT_3D('',#407,#329,#330);
#292=AXIS2_PLACEMENT_3D('',#410,#332,#333);
#293=AXIS2_PLACEMENT_3D('',#411,#334,#335);
#294=AXIS2_PLACEMENT_3D('',#413,#336,#337);
#295=AXIS2_PLACEMENT_3D('',#416,#339,#340);
#296=AXIS2_PLACEMENT_3D('',#417,#341,#342);
#297=AXIS2_PLACEMENT_3D('',#421,#344,#345);
#298=AXIS2_PLACEMENT_3D('',#429,#349,#350);
#299=AXIS2_PLACEMENT_3D('',#431,#352,#353);
#300=AXIS2_PLACEMENT_3D('',#435,#356,#357);
#301=AXIS2_PLACEMENT_3D('',#439,#359,#360);
#302=AXIS2_PLACEMENT_3D('',#446,#364,#365);
#303=AXIS2_PLACEMENT_3D('',#447,#366,#367);
#304=AXIS2_PLACEMENT_3D('',#450,#370,#371);
#305=AXIS2_PLACEMENT_3D('',#452,#373,#374);
#306=AXIS2_PLACEMENT_3D('',#454,#376,#377);
#307=AXIS2_PLACEMENT_3D('',#455,#378,#379);
#308=AXIS2_PLACEMENT_3D('',#457,#381,#382);
#309=DIRECTION('axis',(0.,0.,1.));
#310=DIRECTION('refdir',(1.,0.,0.));
#311=DIRECTION('center_axis',(8.88178419700125E-17,1.,1.33764279610028E-32));
#312=DIRECTION('ref_axis',(0.,-1.33764279610028E-32,1.));
#313=DIRECTION('',(-1.,1.75162308040602E-47,-8.88178419700125E-17));
#314=DIRECTION('',(5.43852429378757E-33,6.12323399573677E-17,1.));
#315=DIRECTION('',(-1.,8.88178419700125E-17,0.));
#316=DIRECTION('',(-5.43852429378757E-33,-6.12323399573677E-17,-1.));
#317=DIRECTION('center_axis',(5.43852429378757E-33,6.12323399573677E-17,
1.));
#318=DIRECTION('ref_axis',(1.,0.,-5.43852429378757E-33));
#319=DIRECTION('',(-1.,8.88178419700125E-17,-1.99711397836559E-79));
#320=DIRECTION('',(8.88178419700126E-17,1.,-6.12323399573677E-17));
#321=DIRECTION('',(8.88178419700126E-17,1.,-6.12323399573677E-17));
#322=DIRECTION('center_axis',(8.88178419700125E-17,1.,2.45234512618384E-32));
#323=DIRECTION('ref_axis',(0.,-2.45234512618384E-32,1.));
#324=DIRECTION('',(1.,-1.75162308040602E-47,8.88178419700125E-17));
#325=DIRECTION('',(-5.43852429378757E-33,-6.12323399573677E-17,-1.));
#326=DIRECTION('',(5.43852429378757E-33,6.12323399573677E-17,1.));
#327=DIRECTION('center_axis',(-1.,8.88178419700125E-17,0.));
#328=DIRECTION('ref_axis',(0.,1.11022302462516E-15,-1.));
#329=DIRECTION('center_axis',(-1.,8.88178419700125E-17,0.));
#330=DIRECTION('ref_axis',(0.,1.11022302462516E-15,-1.));
#331=DIRECTION('',(-1.,8.88178419700125E-17,0.));
#332=DIRECTION('center_axis',(-1.,8.88178419700125E-17,0.));
#333=DIRECTION('ref_axis',(0.,1.11022302462516E-15,-1.));
#334=DIRECTION('center_axis',(-1.,8.88178419700125E-17,0.));
#335=DIRECTION('ref_axis',(0.,1.11022302462516E-15,-1.));
#336=DIRECTION('center_axis',(-1.,8.88178419700125E-17,0.));
#337=DIRECTION('ref_axis',(0.,1.11022302462516E-15,-1.));
#338=DIRECTION('',(1.,-8.88178419700125E-17,0.));
#339=DIRECTION('center_axis',(-1.,8.88178419700125E-17,0.));
#340=DIRECTION('ref_axis',(0.,1.11022302462516E-15,-1.));
#341=DIRECTION('center_axis',(1.,0.,0.));
#342=DIRECTION('ref_axis',(0.,0.,-1.));
#343=DIRECTION('',(0.,1.,0.));
#344=DIRECTION('center_axis',(1.,8.88178419700125E-17,0.));
#345=DIRECTION('ref_axis',(-3.43475248243408E-15,0.,-1.));
#346=DIRECTION('',(-5.43852429378757E-33,6.12323399573677E-17,-1.));
#347=DIRECTION('',(0.,-1.,-6.12323399573677E-17));
#348=DIRECTION('',(-5.43852429378757E-33,6.12323399573677E-17,-1.));
#349=DIRECTION('center_axis',(1.,8.88178419700125E-17,0.));
#350=DIRECTION('ref_axis',(-3.43475248243408E-15,0.,-1.));
#351=DIRECTION('',(0.,-1.,0.));
#352=DIRECTION('center_axis',(0.,0.,1.));
#353=DIRECTION('ref_axis',(1.,0.,0.));
#354=DIRECTION('',(0.,-1.,0.));
#355=DIRECTION('',(1.,8.88178419700125E-17,0.));
#356=DIRECTION('center_axis',(-1.,0.,0.));
#357=DIRECTION('ref_axis',(0.,0.,1.));
#358=DIRECTION('',(0.,1.,0.));
#359=DIRECTION('center_axis',(1.,8.88178419700125E-17,0.));
#360=DIRECTION('ref_axis',(-3.43475248243408E-15,0.,-1.));
#361=DIRECTION('',(5.43852429378757E-33,-6.12323399573677E-17,1.));
#362=DIRECTION('',(0.,-1.,-6.12323399573677E-17));
#363=DIRECTION('',(5.43852429378757E-33,-6.12323399573677E-17,1.));
#364=DIRECTION('center_axis',(1.,8.88178419700125E-17,0.));
#365=DIRECTION('ref_axis',(-3.43475248243408E-15,0.,-1.));
#366=DIRECTION('center_axis',(-8.88178419700125E-17,1.,2.45234512618384E-32));
#367=DIRECTION('ref_axis',(0.,-2.45234512618384E-32,1.));
#368=DIRECTION('',(1.,-3.34801630863524E-15,-3.43267081426291E-15));
#369=DIRECTION('',(1.,8.88178419700125E-17,0.));
#370=DIRECTION('center_axis',(5.43852429378757E-33,-6.12323399573677E-17,
1.));
#371=DIRECTION('ref_axis',(1.,0.,-5.43852429378757E-33));
#372=DIRECTION('',(1.,8.88178419700125E-17,0.));
#373=DIRECTION('center_axis',(-8.88178419700125E-17,1.,1.33764279610028E-32));
#374=DIRECTION('ref_axis',(0.,-1.33764279610028E-32,1.));
#375=DIRECTION('',(-1.,3.34801630863524E-15,3.43267081426291E-15));
#376=DIRECTION('center_axis',(1.,8.88178419700125E-17,0.));
#377=DIRECTION('ref_axis',(-3.43475248243408E-15,0.,-1.));
#378=DIRECTION('center_axis',(1.,8.88178419700125E-17,0.));
#379=DIRECTION('ref_axis',(-3.43475248243408E-15,0.,-1.));
#380=DIRECTION('',(-1.,-8.88178419700125E-17,0.));
#381=DIRECTION('center_axis',(0.,0.,1.));
#382=DIRECTION('ref_axis',(1.,0.,0.));
#383=CARTESIAN_POINT('',(0.,0.,0.));
#384=CARTESIAN_POINT('Origin',(500.,-81.0000000000001,32.5));
#385=CARTESIAN_POINT('',(1000.,-81.0000000000001,16.));
#386=CARTESIAN_POINT('',(-8.88178419700123E-16,-81.,15.9999999999999));
#387=CARTESIAN_POINT('',(0.,-81.0000000000001,15.9999999999999));
#388=CARTESIAN_POINT('',(1000.,-81.0000000000001,65.));
#389=CARTESIAN_POINT('',(1000.,-81.0000000000001,0.));
#390=CARTESIAN_POINT('',(1.77635683940025E-14,-81.,65.));
#391=CARTESIAN_POINT('',(1000.,-81.0000000000001,65.));
#392=CARTESIAN_POINT('',(1.77635683940025E-14,-81.,65.));
#393=CARTESIAN_POINT('Origin',(1000.,-81.0000000000001,65.));
#394=CARTESIAN_POINT('',(1000.,-73.0000000000001,65.));
#395=CARTESIAN_POINT('',(1.84741111297626E-14,-73.,65.));
#396=CARTESIAN_POINT('',(1000.,-73.0000000000001,65.));
#397=CARTESIAN_POINT('',(1.77635683940025E-14,-81.,65.));
#398=CARTESIAN_POINT('',(1000.,-81.0000000000001,65.));
#399=CARTESIAN_POINT('Origin',(500.,-73.0000000000001,32.5));
#400=CARTESIAN_POINT('',(-1.77635683940023E-16,-73.,15.9999999999999));
#401=CARTESIAN_POINT('',(1000.,-73.0000000000001,16.));
#402=CARTESIAN_POINT('',(1000.,-73.0000000000001,16.));
#403=CARTESIAN_POINT('',(1.84741111297626E-14,-73.,65.));
#404=CARTESIAN_POINT('',(1000.,-73.0000000000001,-4.89858719658941E-16));
#405=CARTESIAN_POINT('Origin',(500.,-65.0000000000001,16.));
#406=CARTESIAN_POINT('',(1.4210854715202E-15,-65.,0.));
#407=CARTESIAN_POINT('Origin',(0.,-65.,16.));
#408=CARTESIAN_POINT('',(1000.,-65.0000000000001,0.));
#409=CARTESIAN_POINT('',(250.,-65.,0.));
#410=CARTESIAN_POINT('Origin',(1000.,-65.0000000000001,16.));
#411=CARTESIAN_POINT('Origin',(500.,-65.0000000000001,16.));
#412=CARTESIAN_POINT('',(1000.,-65.0000000000001,8.));
#413=CARTESIAN_POINT('Origin',(1000.,-65.0000000000001,16.));
#414=CARTESIAN_POINT('',(1.4210854715202E-15,-65.,8.));
#415=CARTESIAN_POINT('',(250.,-65.,8.));
#416=CARTESIAN_POINT('Origin',(0.,-65.,16.));
#417=CARTESIAN_POINT('Origin',(1000.,81.0000000000001,0.));
#418=CARTESIAN_POINT('',(1000.,65.0000000000001,0.));
#419=CARTESIAN_POINT('',(1000.,-81.0000000000001,0.));
#420=CARTESIAN_POINT('',(1000.,81.0000000000001,15.9999999999966));
#421=CARTESIAN_POINT('Origin',(1000.,65.0000000000001,16.));
#422=CARTESIAN_POINT('',(1000.,81.0000000000001,65.));
#423=CARTESIAN_POINT('',(1000.,81.0000000000001,65.));
#424=CARTESIAN_POINT('',(1000.,73.0000000000001,65.));
#425=CARTESIAN_POINT('',(1000.,81.0000000000001,65.));
#426=CARTESIAN_POINT('',(1000.,73.0000000000001,15.9999999999966));
#427=CARTESIAN_POINT('',(1000.,73.0000000000001,65.));
#428=CARTESIAN_POINT('',(1000.,65.0000000000001,8.));
#429=CARTESIAN_POINT('Origin',(1000.,65.0000000000001,16.));
#430=CARTESIAN_POINT('',(1000.,-81.0000000000001,8.));
#431=CARTESIAN_POINT('Origin',(500.,0.,0.));
#432=CARTESIAN_POINT('',(1.91846538655227E-14,65.,0.));
#433=CARTESIAN_POINT('',(1.77635683940025E-14,81.,0.));
#434=CARTESIAN_POINT('',(750.,65.0000000000001,0.));
#435=CARTESIAN_POINT('Origin',(1.77635683940025E-14,-81.,0.));
#436=CARTESIAN_POINT('',(1.91846538655227E-14,65.,8.));
#437=CARTESIAN_POINT('',(1.77635683940025E-14,81.,8.));
#438=CARTESIAN_POINT('',(-1.77635683940104E-16,73.,16.));
#439=CARTESIAN_POINT('Origin',(1.9151347174784E-14,65.,16.));
#440=CARTESIAN_POINT('',(0.,73.,65.));
#441=CARTESIAN_POINT('',(0.,73.,-4.89858719658941E-16));
#442=CARTESIAN_POINT('',(0.,81.,65.));
#443=CARTESIAN_POINT('',(0.,81.,65.));
#444=CARTESIAN_POINT('',(-8.88178419700202E-16,81.,16.));
#445=CARTESIAN_POINT('',(0.,81.,0.));
#446=CARTESIAN_POINT('Origin',(0.,65.,16.));
#447=CARTESIAN_POINT('Origin',(500.,81.0000000000001,32.5));
#448=CARTESIAN_POINT('',(1000.,80.9999999999967,15.9999999999966));
#449=CARTESIAN_POINT('',(0.,81.,65.));
#450=CARTESIAN_POINT('Origin',(0.,81.,65.));
#451=CARTESIAN_POINT('',(0.,73.,65.));
#452=CARTESIAN_POINT('Origin',(500.,73.0000000000001,32.5));
#453=CARTESIAN_POINT('',(4.58820481608057E-14,73.,16.));
#454=CARTESIAN_POINT('Origin',(500.,65.,16.));
#455=CARTESIAN_POINT('Origin',(500.,65.,16.));
#456=CARTESIAN_POINT('',(750.,65.0000000000001,8.));
#457=CARTESIAN_POINT('Origin',(500.,0.,8.));
#458=UNCERTAINTY_MEASURE_WITH_UNIT(LENGTH_MEASURE(0.01),#462,
'DISTANCE_ACCURACY_VALUE',
'Maximum model space distance between geometric entities at asserted c
onnectivities');
#459=UNCERTAINTY_MEASURE_WITH_UNIT(LENGTH_MEASURE(0.01),#462,
'DISTANCE_ACCURACY_VALUE',
'Maximum model space distance between geometric entities at asserted c
onnectivities');
#460=(
GEOMETRIC_REPRESENTATION_CONTEXT(3)
GLOBAL_UNCERTAINTY_ASSIGNED_CONTEXT((#458))
GLOBAL_UNIT_ASSIGNED_CONTEXT((#462,#464,#465))
REPRESENTATION_CONTEXT('','3D')
);
#461=(
GEOMETRIC_REPRESENTATION_CONTEXT(3)
GLOBAL_UNCERTAINTY_ASSIGNED_CONTEXT((#459))
GLOBAL_UNIT_ASSIGNED_CONTEXT((#462,#464,#465))
REPRESENTATION_CONTEXT('','3D')
);
#462=(
LENGTH_UNIT()
NAMED_UNIT(*)
SI_UNIT(.MILLI.,.METRE.)
);
#463=(
LENGTH_UNIT()
NAMED_UNIT(*)
SI_UNIT(.CENTI.,.METRE.)
);
#464=(
NAMED_UNIT(*)
PLANE_ANGLE_UNIT()
SI_UNIT($,.RADIAN.)
);
#465=(
NAMED_UNIT(*)
SI_UNIT($,.STERADIAN.)
SOLID_ANGLE_UNIT()
);
#466=SHAPE_DEFINITION_REPRESENTATION(#467,#468);
#467=PRODUCT_DEFINITION_SHAPE('',$,#470);
#468=SHAPE_REPRESENTATION('',(#286),#460);
#469=PRODUCT_DEFINITION_CONTEXT('part definition',#474,'design');
#470=PRODUCT_DEFINITION('UP 145.0730','UP 145.0730',#471,#469);
#471=PRODUCT_DEFINITION_FORMATION('',$,#476);
#472=PRODUCT_RELATED_PRODUCT_CATEGORY('UP 145.0730','UP 145.0730',(#476));
#473=APPLICATION_PROTOCOL_DEFINITION('international standard',
'automotive_design',2009,#474);
#474=APPLICATION_CONTEXT(
'Core Data for Automotive Mechanical Design Process');
#475=PRODUCT_CONTEXT('part definition',#474,'mechanical');
#476=PRODUCT('UP 145.0730','UP 145.0730','U-F\X\FChrungsprofil',(#475));
#477=PRESENTATION_STYLE_ASSIGNMENT((#478));
#478=SURFACE_STYLE_USAGE(.BOTH.,#481);
#479=SURFACE_STYLE_RENDERING_WITH_PROPERTIES($,#485,(#480));
#480=SURFACE_STYLE_TRANSPARENT(0.);
#481=SURFACE_SIDE_STYLE('',(#482,#479));
#482=SURFACE_STYLE_FILL_AREA(#483);
#483=FILL_AREA_STYLE('',(#484));
#484=FILL_AREA_STYLE_COLOUR('',#485);
#485=COLOUR_RGB('',0.87843137254902,0.874509803921569,0.858823529411765);
ENDSEC;
END-ISO-10303-21;
